Song name
# A B C D E F G H I J K L M N O P Q R S T U V W X Y Z

The Gossip - Your Mangled Heart tab

Had to make a couple of small changes to make it work for me hope you enjoy...

    INTRO
 e------------------------------------|
 b------------------------------------|
 g--------------5\--------------------|    (x3)
 d----------------------33-------55---|
 a------------------------------------|
 e---55--3--55------1-------1/3-------|

    INTRO ENDING
 e------------------------------------|
 b------------------------------------|
 g--------------5\--------------------|    (x1)
 d------------------------3/5---------|
 a------------------------------------|
 e---55--3--55------1-----------------|

    VERSE
 e------------------------------------|
 b------------------------------------|
 g--------------5\--------------------|    (x6)play soft
 d----------------------33-------55---|
 a------------------------------------|
 e---55--3--55------1-------1/3-------|

    CHORUS
 e------------------------------------|
 b------------------------------------|
 g------------------------------------|   (x4)
 d------------------------------------|
 a------------------3-3-3-3-3---------|
 e--3/55---3/55----3-3-3-3-3----------|

  Then back to INTRO x3
               INTRO ENDING x1
               VERSE X6
           2ND CHORUS X8

     BRIDGE "listen to track" I don't want the world......
 e------------------------------------------------------------------|
 b------------------------------------------------------------------|
 g---5-5-5-5-5-5/7-7-7-7\5-5-5-5-5-5/7-7-7-7\5-5-5-5-5-5------------|
 d--3-3-3-3-3-3/5-5-5-5\3-3-3-3-3-3/5-5-5-5\3-3-3-3-3-3-------------|
 a------------------------------------------------------------------|
 e------------------------------------------------------------------|

  Then back to the CHORUS up beat to end
Tap to rate this tab
# A B C D E F G H I J K L M N O P Q R S T U V W X Y Z