Song name
# A B C D E F G H I J K L M N O P Q R S T U V W X Y Z

The Gossip - Heavy Cross tab

The Gossip - Heavy Cross

tabbed by: Flex24


Intro:(muted)

e|-----------------------------------------------------------------------|
H|-----------------------------------------------------------------------|
G|------9-9-----9-9-----9-9-----9-9-----9-9-----9-9-----12-12-----12-12--|
D|-----------------------------------------------------------------------|
A|--7-7-----7-7-----7-7-----7-7-----7-7-----7-7-----7-7-------7-7--------|
E|-----------------------------------------------------------------------|

e|-----------------------------------------------------------------------|
H|-----------------------------------------------------------------------|
G|------7-7-----7-7-----7-7-----7-7-----7-7-----7-7------5-5------4-4----|
D|-----------------------------------------------------------------------|
A|--5-5-----5-5-----5-5-----5-5-----5-5-----5-5-----3-3-------2-2--------|
E|-----------------------------------------------------------------------|  x4


Verse:(muted)

e|---------------------------------------|     |--5b6--|
H|---------------------------------------|     |--7b8--|
G|---------------------------------------|     |--7b8--|
D|---------------------------------------|     |--7b8--|
A|--7777777777777777-5555555555555555----|     |-------|
E|---------------------------------------| x4  |-------|


Chorus:

e|--xxxx7777xxxx7777xxxx12121212xxxx12121212xxxx---------------10--------------10---------|
H|--xxxx8888xxxx8888xxxx12121212xxxx12121212xxxx---------------10--------------10---------|
G|--xxxx9999xxxx9999xxxx12121212xxxx12121212xxxx---------------10--------------10---------|
D|--xxxx9999xxxx9999xxxx12121212xxxx12121212xxxx---------------10--------------10---------|
A|--xxxx7777xxxx7777xxxx------------------------------------------------------------------|

x4


Repeat Intro


Chorus


Verse (pause)


And come in with:

e|-0000000000000000--|
H|-0000000000000000--|
G|-0000000000000000--|
D|-------------------|
A|-------------------|
E|-------------------|

           And play the Chorus
Tap to rate this tab
# A B C D E F G H I J K L M N O P Q R S T U V W X Y Z