Song name
# A B C D E F G H I J K L M N O P Q R S T U V W X Y Z

The Gossip - Love And Let Love tab

      THE GOSSIP - Love and Let Love

This is my first tab, so don't hesitate to tell me if you think something is wrong;
 and if you have the rest of the tab, it will be welcome!

e--------------------------------------11-11----------------------|
b--13-13-13-13-13---13-13-13-13-13----------15--16-16-16-16-------|
g-----------------------------------------------------------------|
d-----------------------------------------------------------------|
a-----------------------------------------------------------------|
e--------------------------- -------------------------------------|

e--------------------------------------11-11----------------------|
b--13-13-13-13-13---13-13-13-13-13----------15--13-13-13-13-------|
g-----------------------------------------------------------------|
d-----------------------------------------------------------------|
a-----------------------------------------------------------------|
e---------------------------- ------------------------------------|
Tap to rate this tab
# A B C D E F G H I J K L M N O P Q R S T U V W X Y Z