Song name
# A B C D E F G H I J K L M N O P Q R S T U V W X Y Z

The Gossip - Standing In The Way Of Control tab

This is my take on the gossip - standing in the way of control. Look at the previous 
for more information, I'll just put down the bare bones of how it works. First trick is to 
the low E all the way down to an A to make it sound like a bass.

Intro is the same as earlier tabs:

e|-------------------------------------------------------------------------|
B|-----------------------------------X-------------------------------------|
G|--5-5-5-5-5-5-5-5-5-5-5-5-5-5-5-5--X-------------------------------------|
D|--7-7-7-7-7-7-7-7-7-7-7-7-7-7-7-7--X--9-9-9-9-10-10-12-12----------------|
A|--------------------------------------7-7-7-7--8-8--10-10----------------|
A|-------------------------------------------------------------------------|

Verse:


e|---
B|---
G|---
D|-7- x listen to the song
A|---
A|0--

e|---
B|---
G|---
D|-5- x listen to the song
A|---
A|0--

then:

e|----------|
B|----------|
G|----------|
D|----------|
A|----------|
A|6-8-8-3-3-|

For the second part of the verse:

e|---------------------|
B|---------------------|
G|---------------------|
D|-77775-7777-5--------|       etc listen to the record for proper timings
A|-77775-7777-5--------|
A|---------------------|

then same ending as before

e|---
B|---
G|---
D|-5- x listen to the song
A|---
A|0--

e|----------|
B|----------|
G|----------|
D|----------|
A|----------|
A|6-8-8-3-3-|

Not looked at the bridge yet although sure its the same as the other tabs but taking into account E=A.


Sounds good to me and to the record. Maybe its crap though.

Tom
Tap to rate this tab
# A B C D E F G H I J K L M N O P Q R S T U V W X Y Z