Guitaretab - guitar tabs
Song name
# A B C D E F G H I J K L M N O P Q R S T U V W X Y Z

The Gossip - Coal To Diamonds tab

This is the very first TAB i have tried to do it may be way off but hear goes.   ( NO LAUGHING )
     ** listen to the song for the timing**
     ** Guitar loop missing still working on it**
 I think i feel a little hurt
                        e--------------------|
                        b--------------------|
                        g--------------------|
                        d--------------------|
                        a----5---------------|
                        e----3---------------|
 My fists are turning coal to diamonds
                              e--------------|
                              b--------------|
                              g--------------|
                              d--------------|
                              a--3-----------|
                              e--1-----------|
 No one told me so much work
                        e--------------------|
                        b--------------------|
                        g--------------------|
                        d--------------------|
                        a----5---------------|
                        e----3---------------|
 Would go into trying
                e--------------|
                b--------------|
                g--------------|
                d--------------|
                a--3-----------|
                e--1-----------|
 Oh but those feelings ain't the same
                                 e--------------------|
                                 b--------------------|
                                 g--------------------|
                                 d--------------------|
                                 a----5---------------|
                                 e----3---------------|
 How some things never change
                       e--------------|
                       b--------------|
                       g--------------|
                       d--------------|
                       a--3-----------|
                       e--1-----------|
 Well nobody is perfect
                e--------------------|
                b--------------------|
                g--------------------|
                d--------------------|
                a----5---------------|
                e----3---------------|
 And i knew better anyway
                   e--------------|
                   b--------------|
                   g--------------|
                   d--------------|
                   a--3-----------|
                   e--1-----------|
        (chorus)
** listen to the song for the timing **

 I  thought about it till my head hurts
 e-----------------------------------------------
 b-----------------------------------------------
 g-----------------------------------------------
 d--0---0--0---0---0--0--------------------------
 a--0---0--0---0---0--0-----3---3--3--3---3--3--3
 e--------------------------1---1--1--1---1--1--1

 I thought about it but it things worse
 e-----------------------------------------------
 b-----------------------------------------------
 g-----------------------------------------------
 d--0---0--0---0---0--0--------------------------
 a--0---0--0---0---0--0-----3---3--3--3---3--3--3
 e--------------------------1---1--1--1---1--1--1

 I  thought about it till my head hurts
 e-----------------------------------------------
 b-----------------------------------------------
 g-----------------------------------------------
 d--0---0--0---0---0--0--------------------------
 a--0---0--0---0---0--0-----3---3--3--3---3--3--3
 e--------------------------1---1--1--1---1--1--1
 I thought about it but it things worse
 e-----------------------------------------------
 b-----------------------------------------------
 g-----------------------------------------------
 d--0---0--0---0---0--0--------------------------
 a--0---0--0---0---0--0-----3---3--3--3---3--3--3
 e--------------------------1---1--1--1---1--1--1


 So i was wrong
 e--222222222--
 b--333333333--
 g--222222222--   **mute at the end of each section**
 d--000000000--
 e-------------
 What could i do
 e--222222222--
 b--333333333--
 g--222222222--
 d--000000000--
 e-------------
 i knew all along
 e--222222222--
 b--333333333--
 g--222222222--
 d--000000000--
 e-------------


 ** Hear there is a instrumental on the bass haven't worked that out yet**

 Now repeat from the top
[ Tab from: http://www.guitaretab.com/t/the-gossip/97310.html ]
Related for Coal To Diamonds tab
×
Coal To Diamonds