The Gothsicles - Infl8-r tab

Infl8-r by The Gothsicles OFFICIAL WEBSITE vvvv
                          http://www.thegothsicles.com/news.html

Intro (played clean)
e-----15------16-------------------16---|
B---------------------------------------|
G-12------13-------------------12-------|
D-----------------15--13--15------------|
A---------------------------------------|
E---------------------------------------|
Main Riff (Overdriven Guitar)
Play this during the second half of the intro, the chorus and the outro.
e-----3-------4-------------------4-|
B-----------------------------------|
G-0-------1--------------------0----|
D----------------3----1----3--------|
A-----------------------------------|
E-----------------------------------|

And that's it
Tap to rate this tab
 
# A B C D E F G H I J K L M N O P Q R S T U V W X Y Z