Song name
# A B C D E F G H I J K L M N O P Q R S T U V W X Y Z

The Gracious Few - Tredecim tab

Tabbed by: Tobias Linz
Email: demo-goblin@hotmail.com

My 1st tab so plz let me know how I did.

Tuning:
as far as I can work out;
drop D with each sting tuned an extra 1/2 a step down.

Intro:

d#|-------------------------------------|
A#|-------------------------------------|
F#|-------------------------------------|
C#|-----0-----0-----0-----0-----0-----0-|
G#|--3h4---3h4---3h4---3h4---h34--0-2---|
C#|-0-----0-----0-----0-----0-----0-2---|

d#|-------------------------------------------|
A#|-------------------------------------------|
F#|-------------------------------------------|
C#|-----0-----0-----0--8--------0-----0-----0-| x2 (this also plays 
G#|--3h4---3h4---3h4--7---8--3h4---3h4--2-2---|     throughout verse)
C#|-0-----0-----0--------7--0-----0-----2-2---|

| h  hammer-on

www.thegraciousfew.com/
=======================================================================
Tap to rate this tab
 
# A B C D E F G H I J K L M N O P Q R S T U V W X Y Z