Song name
# A B C D E F G H I J K L M N O P Q R S T U V W X Y Z

The Graduate - Gunsliger tab

the last one i was all messed up on. this is way better.

-----------------------------------------------------------------|
-----------------------------------------------------------------|
xxxx--3------3----5----2---3-------------------------------------|
xxxx--3------4----6----3---3-------------------------------------|
xxxx--1------4----6----3---1-------------------------------------|
xxxx---------2----4----1-----------------------------------------|


Other Part "Oh Please, oh please believe..."

-----------------------------------------------------------------|
-----------------------------------------------------------------|
------3----5-6--13---10------------------------------------------|
------3----5-6--13---10------------------------------------------|
------1----3-4--11---8-------------------------------------------|
-----------------------------------------------------------------|
Tap to rate this tab
 
# A B C D E F G H I J K L M N O P Q R S T U V W X Y Z