Song name
# A B C D E F G H I J K L M N O P Q R S T U V W X Y Z

The Grand Island - Ass And Disco tab

e--------------------------------------------------|
B--------------------------------------------------|
G--------------------------------------------------|
D------------------2-------------------------------|
A------4-4-4-4-2-4---4-2-4--------------0-0--------|
E--0-2---------------------2-2--2-2-2-4-----4-2----|


e-----------------------------------------------------------------------------|
B-----------------------------------------------------------------------------|
G-----------------------------------------------------------------------------|
D-------------2----------------------------------------2-----0-4-4-4-3--------|
A-4-4-4-4-2-4---4-2-4--------------0-0---0-4-4-4-4-2-4---4-2-----------4------|
E---------------------2-2--2-2-2-4-----4--------------------------------------|

Ass And Disco, a song from The Grand Island's second album - Boys & Brutes. This is my 
tab, so let me know if something is wrong. :)
Tap to rate this tab
# A B C D E F G H I J K L M N O P Q R S T U V W X Y Z