Guitaretab - guitar tabs
Song name
# A B C D E F G H I J K L M N O P Q R S T U V W X Y Z

The Grates - Message tab

Message by The Grates
The Ouch. The Touch (EP)

Part 1 (I got a message for you  ect.)

e|-----------------------11-10-9----|
b|----------------------------------|
g|----------------------------------| x2
d|-5-5-5-7-7-7-5-5-7----------------|
a|-6-6-6-8-8-8-6-6-8----------------|
e|-4-4-4-6-6-6-4-4-6----------------|

e|-----------------------------|
b|-----------------------------|
g|-----------------------------|
d|-5-5-5-7-7-7-5-5-4-3-2-------|
a|-6-6-6-8-8-8-6-6-5-4-3-------|
e|-4-4-4-6-6-6-4-4-3-2-1-------|

e|---------------------|
b|---------------------|
g|---------------------|
d|-5-5-5-7-7-7-5-5-----|
a|-6-6-6-8-8-8-6-6-----|
e|-4-4-4-6-6-6-4-4-----|

Part 2 (60 40 80 30, donít mind playing dirty/ youíre killing me (2nd time) ect.)
[ Tab from: http://www.guitaretab.com/t/the-grates/154496.html ]
e|
b|-------------------------------------8-8-8---|
g|---------------------------------------------|
d|-5-5-5-7-7-7-5-5-5-7-7-7-10-10-10-10-8-8-8---|
a|-6-6-6-8-8-8-6-6-6-8-8-8-11-11-11-11-6-6-6---|
e|-4-4-4-6-6-6-4-4-4-6-6-6-9--9--9--9----------|

e|----------------------------------------------------|
b|----------------------------------------------------|
g|----------------------------------------------------|  play it through twice
d|-5-5-5-7-7-7-5-5-5-7-7-7-10-10-10-10--9-8-----------|
a|-6-6-6-8-8-8-6-6-6-8-8-8-11-11-11-11-10-9-----------|
e|-4-4-4-6-6-6-4-4-4-6-6-6--9--9--9--9--8-7-----------|

Part 3 (generating love on the weekend ect.)

e|-------------------------------|
b|-------------------------------|
g|-------------------------------|
d|-7------7-------7-------7------|
a|-8------8-------8-------8------|
e|-6------6-------6-------6------|

play it all again but play part 3 twice then do part one again but play 11 on the high E at the end.

Note: this is just a rough guide: you do lots of up and down strumming but you can 
that out for yourself.

Email me at people_know_mee@hotmail.com
Related for Message tab