Song name
# A B C D E F G H I J K L M N O P Q R S T U V W X Y Z

The Grates - Burn Bridges tab

The Grates - Burning Bridges

Main Riff:

----------------------------------------------------------------------------|
----------------------------------------------------------------------------|
-9999-----6666-------------------6644---------------------------------------|
-9999-9-9-6666-6-6-7777-2-2-7772-6644---------------------------------------|
-7777-9-9-4444-6-6-7777-2-2-7772-4422---------------------------------------|
------7-7------4-4-5555-0-0-5550--------------------------------------------|

Verse:

----------------------------------------------------------------------------|
----------------------------------------------------------------------------|
----1-----1--------------0-------------0------------------------------------|
-22--2-22--2-----2-----1-------2-----1--------------------------------------|
--------------33--2-22------33--2-22----------------------------------------|
----------------------------------------------------------------------------|

Chorus:

-0---------0---------------------|
-0--4--5---0---------------------|
-9--4--6---2---------------------|
-9--4--6---2---------------------|
-7--6--4---0---------------------|
-0-------------------------------|
Tap to rate this tab
# A B C D E F G H I J K L M N O P Q R S T U V W X Y Z