Song name
# A B C D E F G H I J K L M N O P Q R S T U V W X Y Z

The Grates - Feels Like Pain tab

-------------------------------------------------------------------------------
			     FEELS LIKE PAIN - The Grates
-------------------------------------------------------------------------------
Tabbed by: DarK_AssassiN
Email: dark3630@gmail.com

Pretty simple, but sounds cool.  Just figure out the strum patterns and start
rockin' :P

                            Main Riff (Intro x6)
e|---------------------------------------------------------------------------|
B|---------------------------------------------------------------------------|
G|---------------------------------------------------------------------------|
D|---------------------------------------------------------------------------|
A|------------------2--2--2---0--h2h3--3--3--3-------------------------------|
E|--0--0--0--0-----------------------------------------3--3--3--3------------|

                            Chorus
e|----------------x----------------------x-----------------------------------|
B|---------------x-----------------------x-----------------------------------|
G|---------------x----4---4---5--5----x--------------------------------------|
D|---2--2--2---x---4---4----5--5---x----5--5--5------------------------------|
A|---2--2--2---x---2---2----3--3---x----5--5--5------------------------------|
E|---0--0--0---x----------------------x----3--3--3---------------------------|

                            Bridge
e|---------------------------------------------------------------------------|
A|---------------------------------------------------------------------------|
D|---------------------------------------------------------------------------|
G|---2--2----5--5---7---7----9--9----12--12----------------------------------|
B|---2--2----5--5---7---7----9--9----12--12----------------------------------|
E|---0--0----3--3---5---5----7--7----10--10----------------------------------|


| /  slide up
| \  slide down
| h  hammer-on
| p  pull-off
| ~  vibrato
| +  harmonic
| x  Mute note
===============================================================================
Tap to rate this tab
# A B C D E F G H I J K L M N O P Q R S T U V W X Y Z