Song name
# A B C D E F G H I J K L M N O P Q R S T U V W X Y Z

The Grates - I Am Siam tab

-------------------------------------------------------------------------------
			     I Am Siam (intro) - The Grates
-------------------------------------------------------------------------------
Tabbed by: Tommee
Email: tomgpowers@hotmail.com / www.myspace.com/griffybabe

This is just the intro to the song. this chord progression plays through the 
verse as well.
The melody line isnt played by guitar, patience plays it on some kind of 
mouth organ.

These are the notes, (you could play the high b and e strings open if you 
wanted to, it adds some more depth to the sound) listen to the song for the 
rhythm, this is the best i could show the rhythm written down haha.

enjoy! its a great song.

Tuning: Standard

e|---------------------------------------------------------------------------|
B|---------------------------------------------------------------------------|
G|---2--2--2-2-/-4---4-4-4--2--2--2-2-/-4---4-4-4----------------------------|
D|---2--2--2-2-/-4---4-4-4--0--0--0-0-/-0---0-0-0----------------------------|
A|---------------------------------------------------------------------------|
E|---------------------------------------------------------------------------|


                                       | Let ring
e|---------------------------------------------------------------------------|
B|---------------------------------------------------------------------------|
G|---2--2--2-2-/-4---4-4-4--2--2--2-2--1~~-----------------------------------|
D|---2--2--2-2-/-4---4-4-4--0--0--0-0--0~~-----------------------------------|
A|---------------------------------------------------------------------------|
E|---------------------------------------------------------------------------|


| /  slide up
| \  slide down
| h  hammer-on
| p  pull-off
| ~  vibrato
| +  harmonic
| x  Mute note
===============================================================================
Tap to rate this tab
 
# A B C D E F G H I J K L M N O P Q R S T U V W X Y Z