Song name
# A B C D E F G H I J K L M N O P Q R S T U V W X Y Z

The Great Commission - The Way The Truth The Life tab

-------------------------------------------------------------------------------
The Way, The Truth, The Life  The Great Commission
-------------------------------------------------------------------------------
Tabbed by: Jared
Tuning: Drop A#

I put up the bass tab so I thought I might as well put up the guitar tab. 

Intro
C |---------------------------------------------------------------------------|
G |---------------------------------------------------------------------------|
D#|---------------------------------------------------------------------------|
A#|---------------------------------------------------------------0~----------|
F |-3-1-0-2-1-0-000--3-1-2-1-000--3-1-0-2-1-0-000--3-1-2-1-0-000--0~----------|
A#|-3-1-0-2-1-0-000--3-1-2-1-000--3-1-0-2-1-0-000--3-1-2-1-0-000--0~----------|

THE WAY, THE TRUTH, THE LIFE

Then play this 4 times
C |---------------------------------------------------------------------------|
G |---------------------------------------------------------------------------|
D#|---------------------------------------------------------------------------|
A#|---------------------------------------------------------------------------|
F |-3-1-0-2-1-0-000--3-1-2-1-000--3-1-0-2-1-0-000--000-000-000-000------------|
A#|-3-1-0-2-1-0-000--3-1-2-1-000--3-1-0-2-1-0-000--000-000-000-000------------|

C |----|
G |----|
D#|----|
A#|-0~-|
F |-0~-|
A#|-0~-|

Its a really easy song to learn.
Good for those just getting into playing heavy stuff!
God Bless!

************************************

| /   slide up
| \   slide down
| h   hammer-on
| p   pull-off
| ~   vibrato
| +   harmonic
| x   Mute note
| b   Bend
| pb  Pre-bend
| br  Bend release
| pbr Pre-bend release
| brb Bend release bend

************************************
Tap to rate this tab
 
# A B C D E F G H I J K L M N O P Q R S T U V W X Y Z