Song name
# A B C D E F G H I J K L M N O P Q R S T U V W X Y Z

The Great Kat - Funeral March tab

|----------------------------------------|
|----------------------------------------|
|----------------------------------------|
|-5-5-5-5-8-7-7-5-5---4--5---------------|
|-5-5-5-5-8-7-7-5-5---4--5---------------|
|-3-3-3-3-6-5-5-3-3---3--3---------------|

Or Just Play It On One String ...


|----------------------------------------|
|----------------------------------------|
|----------------------------------------|
|-5-5-5-5-8-7-7-5-5---4--5---------------|
|----------------------------------------|
|----------------------------------------|
Tap to rate this tab
# A B C D E F G H I J K L M N O P Q R S T U V W X Y Z