Song name
# A B C D E F G H I J K L M N O P Q R S T U V W X Y Z

The Great Wilderness - Platonic tab

The Great Wilderness

CANCION: Platonic

En la mayoria de las partes pude sacar la guitarra 1 y en otras la 2
pero apenas las saque actualizo el tab. Y que lo disfruten.

Intro

Guitarra 1
|---------------------------------------------------|
|---------------------------------------------------|
|-----11---11---11----7---7---7---------------------|  
|--9----9-----9-----5---5---5-----------------------|
|---------------------------------------------------|   Estas dos partes  
|---------------------------------------------------|   se repiten 2 veces.

|---------------------------------------------------|
|---------------------------------------------------|
|---------------------------------------------------|
|-10-10---10-10-10---10-10-10---10-10-10-10---------|
|---------------------------------------------------|
|---------------------------------------------------|

Despues de repetir lo de arriba 2 veces esta se repite x3
|---------------------------------------------------|
|---------------------------------------------------|
|-----11---11---11----7---7---7---------------------|  
|--9----9-----9-----5---5---5-----------------------|
|---------------------------------------------------|  
|---------------------------------------------------|  
 
Luego volvemos a esta parte
|---------------------------------------------------|
|---------------------------------------------------|
|---------------------------------------------------|
|-10-10---10-10-10---10-10-10---10-10-10-10---------|
|---------------------------------------------------|
|---------------------------------------------------|


Versos 

|---------------------------------------------------|
|---------------------------------------------------|
|-----11---11---11----7---7---7---------------------|  
|--9----9-----9-----5---5---5-----------------------|
|---------------------------------------------------|    
|---------------------------------------------------|   


Pre-Coro

Guitarra 1
|---------------------------------------------------|    
|---------------------------------------------------|  
|---------7------------------7----------------------|
|--2------5---------2--------5----------------------|    
|--2----------------2-------------------------------|  
|--0----------------0-------------------------------|


Coro

Guitarra 1
Aqui solo se usan estos dos acordes.

   B5   G5
|---------------------------------------------------|
|---------------------------------------------------|
|---------------------------------------------------|
|--9----5-------------------------------------------|
|--9----5-------------------------------------------|
|--7----3-------------------------------------------|

Guitarra 2

|---------------------------------------------------|
|--3-3-3--5-5-5-5-5--3-3-3--5-5-5-5-5---------------|
|---------------------------------------------------|
|---------------------------------------------------|
|---------------------------------------------------|
|---------------------------------------------------|

|---------------------------------------------------|
|---------------------------------------------------| 
|-5/7-7-7-7-7--5-5-5--7-7-7-7-7-5-5-5---------------|
|---------------------------------------------------|
|---------------------------------------------------|
|---------------------------------------------------|


Solo

|---------------------------------------------------|
|---------------------------------------------------|
|-11-11-11-11-11---7-7-7-7--9v--7-7-7-7--9v---------|
|---------------------------------------------------|
|---------------------------------------------------|
|---------------------------------------------------|  

|---------------------------------------------------|
|---------------------------------------------------|
|-11-11-11-11-11-11-11--14-14-14-14-14--7-7-7-7---9v|
|---------------------------------------------------|
|---------------------------------------------------|
|---------------------------------------------------|

|---------------------------------------------------|
|---------------------------------------------------|
|-7-7-7-7-9-----------------------------------------|
|-----------9-9-9-9---------------------------------|
|---------------------------------------------------|
|---------------------------------------------------|


Parte Final

Guitarra 2

|---------------------------------------------------|
|--------------------8-8-8-7-7-7--------------------|
|-4-4-4-4h7p4-4-4-4---------------------------------|
|---------------------------------------------------|
|---------------------------------------------------|
|---------------------------------------------------|

http://thegreatwilderness.bandcamp.com/
Tap to rate this tab
# A B C D E F G H I J K L M N O P Q R S T U V W X Y Z