Song name
# A B C D E F G H I J K L M N O P Q R S T U V W X Y Z

The Green Band - Alive tab

First Tab. Everything sounded out by ear. If any1's got the chords I'd appreciate 
it. E-mail me at hominidshintoman@yahoo.com
 
At the ending you might wanna experiment with some pulloffs and slides.

e---17--17-16-------19--17-16-17-16-----17--17-16-------------------------|
B-------------19--------------------19------------19-17-------------------|
G-------------------------------------------------------19/18--16---------|
D-------------------------------------------------------------------------|
A-------------------------------------------------------------------------|
E-------------------------------------------------------------------------|


e---17--17-16-------19--17-16-17-16-----17--17-16-------------------------|
B-------------19--------------------19------------19-17-------------------|
G-------------------------------------------------------19/18--16--18-19--|
D-------------------------------------------------------------------------|
A-------------------------------------------------------------------------|
E-------------------------------------------------------------------------|

This band is unsigned.

Their page is http://www.facebook.com/TheGreen808
Tap to rate this tab
 
# A B C D E F G H I J K L M N O P Q R S T U V W X Y Z