Song name
# A B C D E F G H I J K L M N O P Q R S T U V W X Y Z

The Greenhornes - Pattern Skies tab

Song: Pattern Skies
Artist: The Greenhornes
Tabbed by: Yahtzee

This song is played a half step down, meaning you're tuned (from lowest to highest)D#,
C#, F#, A, D# (an octave up)

INTRO:

E|-----------------------------------------------------------------|
B|-----------------------------------------------------------------|
G|-----5-7-------5---7-9-9------5-7-------5---5-4-4-------5-7------|
D|-7-7-5-7-7-5h7---7--------7-7-5-7-7-5h7---7---------7-7-5-7-7----|
A|-7-7-3-5-7----------------7-7-3-5-7-----------------7-7-3-5-7----|
E|-5-5-----5----------------5-5-----5-----------------5-5-----5----|

VERSE:

The verse is just the power chord pattern(A, A, C, D, A) without the riff. So listen to
record for the timing. So from now on, the part with the power chords but no riff is
1. The part with the chords and the riff is RIFF 2.

After "its just too much"

E|-----------------|
B|-----------------|
G|-----5-7---------|
D|-7-7-5-7-5-------|
A|-7-7-3-5-5-------|
E|-5-5-----3-------|

CHORUS:

This is played behind the "growing old...passing life..looking through" part, the chords
follow the lyrics.

E|---------------------------------------------------------------------|
B|---------------------------------------------------------------------|
G|-----5-7-------5-7-------5-7-------5-7-------------------------------|
D|-7-7-5-7-7---7-5-7-7---7-5-7-7---7-5-7-5-5-5-5-5---------------------|
A|-7-7-3-5-7---7-3-5-7---7-3-5-7---7-3-5-5-5-5-5-5---------------------|
E|-5-5-----5---5-----5---5-----5---5-----3-3-3-3-3---------------------|


Then on "skies" he does RIFF 1 again once, then the next verse. Just listen to the 
for timing.

Send complaints/spam/love letters to: danehagermusic@hotmail.com


-Yahtzee
Tap to rate this tab
# A B C D E F G H I J K L M N O P Q R S T U V W X Y Z