Song name
# A B C D E F G H I J K L M N O P Q R S T U V W X Y Z

The Greenhornes - Better Off Without It tab

(/) Slide Up  (\) Slide Down  (h) Hammer On  (p) Pull Off  (b) Bend (r) Release (v) Vibrato

E|-----------3--3--3--5--|
B|--1--------3--3--5--3--|
G|--0--9--7--4--5--4--4--|
D|--2--9--7--5--3--3--5--|
A|--3--7--5--5--5--5--5--|
E|-----------3--3--3--3--|



E|-----------------------|
B|-----------------------|
G|-----------------------|
D|--9--9--7-----7--------|
A|--7--7--7--7--5--5--3--|
E|--------5--5-----3--1--|
Tap to rate this tab
 
# A B C D E F G H I J K L M N O P Q R S T U V W X Y Z