Song name
# A B C D E F G H I J K L M N O P Q R S T U V W X Y Z

The Greenhornes - Song 13 tab

(/) Slide Up  (\) Slide Down  (h) Hammer On  (p) Pull Off  (b) Bend (r) Release (v) Vibrato

E|-----------------------------------|
B|-----------------------------------|
G|-----------------------------------|
D|-----------------------------------|
A|--9--7--9--4--12--12--12--9--9--5--|
E|--7--5--7--2--10--9---8---7--5--3--|



E|------------------------------------|
B|------------------------------------|
G|------------------------------------|
D|------------------------------------|
A|--12--12--12--9--9--5---------------|
E|--10--9---8---7--5--3---------------|


E|--------|
B|--------|
G|--1--2--|
D|--2--2--|
A|--2--0--|
E|--0-----|
Tap to rate this tab
# A B C D E F G H I J K L M N O P Q R S T U V W X Y Z