Song name
# A B C D E F G H I J K L M N O P Q R S T U V W X Y Z

The Greenhornes - My Sparrow tab

(/) Slide Up  (\) Slide Down  (h) Hammer On  (p) Pull Off  (b) Bend (r) Release (v) Vibrato

E|----------|       These are the only chords used in the song so you figure out how it goes
B|----------|
G|--1--1h2--|
D|--2--2-2--|
A|--2--2-2--|
E|--0--0-0--|



E|--------|
B|--------|
G|--3--1--|
D|--4--2--|
A|--4--2--|
E|--2--0--|



E|-----0----------2----------4-----|
B|---------------------------------|
G|--1-----1--1h2-----2--2/4-----4--|
D|---------------------------------|
A|---------------------------------|
E|---------------------------------|
Tap to rate this tab
 
# A B C D E F G H I J K L M N O P Q R S T U V W X Y Z