Song name
# A B C D E F G H I J K L M N O P Q R S T U V W X Y Z

The Greenhornes - My Babys Alright tab

(/) Slide Up  (\) Slide Down  (h) Hammer On  (p) Pull Off  (b) Bend (r) Release (v) Vibrato

E|-------------------------------------|
B|-------------------------------------|
G|-------------------------------------|
D|--------9--11--9-----------9--11--9--|
A|--9--9--7--7---7--9--9--9--7--7---7--|
E|--7--7------------7--7--7------------|



E|------------------|
B|------------------|
G|------------------|
D|----------9--5/6--|
A|--9--5/6--7--3-4--|
E|--7--3-4----------|
Tap to rate this tab
# A B C D E F G H I J K L M N O P Q R S T U V W X Y Z