Song name
# A B C D E F G H I J K L M N O P Q R S T U V W X Y Z

The Greenhornes - Its Not Real tab

-------------------------------------------------------------------------------
			    IT'S NOT REAL - The Greenhornes
-------------------------------------------------------------------------------
Tabbed by: vi
Email: pistol.of.fire@gmail.com

Tuning:

e|-------------------------------------------------|
B|-------------------------------------------------|
G|-------------------------------------------------|
D|--9/-11-------------9/-11------------------------|intro /verses
A|--7/-9----7/-9------7/-9----7/-9-----------------|
E|----------5/-7--------------5/-7-----------------|

guitar 2 during chorus

e|-------------------------------------------------|
B|-------------------------------------------------|
G|---12~10-------------------12~10-----------------|
D|---------12-10--12-10------------12-10--12-10----|
A|-------------------------------------------------|
E|-------------------------------------------------|

still working on the solo. 


| /  slide up
| \  slide down
| h  hammer-on
| p  pull-off
| ~  vibrato
| +  harmonic
| x  Mute note
===============================================================================
Tap to rate this tab
# A B C D E F G H I J K L M N O P Q R S T U V W X Y Z