Song name
# A B C D E F G H I J K L M N O P Q R S T U V W X Y Z

The Greenhorns - Go Tell Henry tab

The Greenhorns
Go Tell Henry
Tuning E-A-D-G-B-E
Tabbed By Daniel Allan 
danielallan@52yahoo.co.uk

This sould give you an idea on the fills,
  Em                                                          
E|-----7---(----FILL1--------)-------7---(----FILL1--------)
B|-----8---(-(8H10H8)--------)-------8---(--8H10H8---------)
G|-----9---(-(--------9--7//9)-------9---(----------9--7//9)
D|---------(-----------------)-----------(-----------------)
A|---------(-----------------)-----------(-----------------)
E|--7------(-----------------)--7*-------(-----------------)
 *  Go                           Tell...
  B
E|---7---7---7---7---7----|
B|---7---7---7---7---7----|
G|---8---8---8---8---8----|
D|---9---9---9---9---9----|
A|---9---9---9---9---9----|
E|---7---7---7---7---7----|
 |
 |riff(listen for timeing)
E|------------------------|
B|------------------------|
G|--9br(9)H7H-H7----------|
D|----------H9H--9-(7)//9-|
A|------------------------|
E|------------------------|
 begun.....................


A       B   Em    C
Lookin at the sky plays tricks on my mind

I hope this helps,
Tap to rate this tab
# A B C D E F G H I J K L M N O P Q R S T U V W X Y Z