Song name
# A B C D E F G H I J K L M N O P Q R S T U V W X Y Z

The Grenma - Ideje Lni tab

The Grenma - Ideje élni
(made by Krisz)

Tuning: Drop D (DADGBE)


  Intro
    8x      8x      16x     8x      8x      16x
E|-------|-------|-------|-------|-------|-------|
B|-------|-------|-------|-------|-------|-------|
G|-------|-------|-------|-------|-------|-------|
D|---6---|---6---|---6---|---6---|---6---|---6---|
A|---6---|---6---|---6---|---6---|---6---|---6---|
D|---6---|---8---|---5---|---6---|---8---|---5---|
     x       x       x       x       x       

  
 
  Verse1

E|---------------------------------------------------------------------------------------------|
B|---------------------------------------------------------------------------------------------|
G|---------------------------------0---0-0-0-0-0---0---0-0-0-0-0-0-0---------------------------|
D|---3-3-3-3-3-3-3-3-6-6-6-6-6-6-6-1---1-1-1-1-1---1---1-1-1-1-1-1-1---------------------------|     2x
A|---3-3-3-3-3-3-3-3-6-6-6-6-6-6-6-1---1-1-1-1-1---1---1-1-1-1-1-1-1---------------------------|
D|---3-3-3-3-3-3-3-3-6-6-6-6-6-6-6-1---1-1-1-1-1---1---1-1-1-1-1-1-1---------------------------|

  
    8x       8x      8x      8x
E|-------|--------|-------|-------|
B|-------|--------|-------|-------|
G|-------|--------|-------|-------|
D|---3---|---11---|---6---|---5---|
A|---3---|---11---|---6---|---5---|
D|---3---|---11---|---6---|---5---|



E|---------------------------------------------------------------------1-----------------------|
B|---------------------------------------------------------------------------------------------|
G|---------------------------------0---0-0-0-0-0---0---0-0-0-0-0-0-0---------------------------|
D|---3-3-3-3-3-3-3-3-6-6-6-6-6-6-6-1---1-1-1-1-1---1---1-1-1-1-1-1-1-3~~~----------------------|     
A|---3-3-3-3-3-3-3-3-6-6-6-6-6-6-6-1---1-1-1-1-1---1---1-1-1-1-1-1-1-3~~~----------------------|
D|---3-3-3-3-3-3-3-3-6-6-6-6-6-6-6-1---1-1-1-1-1---1---1-1-1-1-1-1-1-3~~~----------------------|




  Verse2
                       8x      4x      4x
E|------------------|-------|-------|-------|------------------------------------------------------|
B|------------------|-------|-------|-------|------------------------------------------------------|
G|------------------|-------|-------|-------|------------------------------------------------------|
D|---BASS--GUITAR---|-------|-------|---9---|--------------------VERSE1----------------------------|
A|------------------|-------|-------|---9---|------------------------------------------------------|
D|------------------|---6---|---8---|---9---|------------------------------------------------------|
                        x       x


  Solo

E|---------------------------------------------------------------------------------------------|
B|------6-------6--4-------4-----------------------------6-------6--4------4-4-----------------|
G|----------5----------5------5---3-------3-3-3-3-3----------5----------5----------------------|
D|---3-------------------------------6-6------------3-3----------------------------------------|
A|---------------------------------------------------------------------------------------------|
D|---------------------------------------------------------------------------------------------|



E|----------------------------4---3------------------6--4--3------4-3--------------------------|
B|------6-------6--4-------4---------6-6--4-4--4---------------4-------------------------------|
G|----------5----------5--------------------------5--------------------------------------------|
D|---3-----------------------------------------------------------------------------------------|
A|---------------------------------------------------------------------------------------------|
D|---------------------------------------------------------------------------------------------|


Outro = Verse1
Tap to rate this tab
# A B C D E F G H I J K L M N O P Q R S T U V W X Y Z