Song name
# A B C D E F G H I J K L M N O P Q R S T U V W X Y Z

The Grim Northern Social - Urban Pressure tab

The Grim Northern Social an up and coming Scottish band who will blow you away live or
off the album. Their first album is on sale now and their second album will be out soon.

[intro:] 
e|-----------------------------------------| 
B|-----------------------------------------| 
G|-----------------------------------------| 
D|-----------------------------------------| X2 
A|-10---/-----15----15-------\------10-----| 
E|--8---/----- 13----13-------\------8-----| 


[verse] 
|-----------------------------------| 
|-----------------------------------| 
|-----------------------------------| 
|-----------------------------------| 
|-- 10--X8---/---15--X8-------------| 
|---8---X8---/---13--X8-------------| 


[Then kool bass bit is played here] 



[Then onto -] 

[chorus] 
e|----------------------------------------------------------------| 
B|----------------------------------------------------------------| 
G|---5-5-5-5-5-5--------------------------------------------------| 
D|---5-5-5-5-3-5--5-5-5-5-5-5--7-7-7-7-7-7---3-3-3-3-3-3----------| 
A|---3-3-3-3-3-3--5-5-5-5-5-5--7-7-7-7-7-7---3-3-3-3-3-3----------| 
E|----------------3-3-3-3-3-3--5-5-5-5-5-5---1-1-1-1-1-1----------| 

[when this is done it goes back to verse] 

when u play with the song it sounds right if there is anything wrong with what i have
here send me an email at tjp_2002_@hotmail.com

also visit www.thegrimnorthernsocial.com or www.thegns.com
Tap to rate this tab
 
# A B C D E F G H I J K L M N O P Q R S T U V W X Y Z