Guitaretab - guitar tabs
Song name
# A B C D E F G H I J K L M N O P Q R S T U V W X Y Z

The Grnne Glitrende 3 Og Dag - Forelska I Nissen tab

http://dagingebrigtsen.no/ggg.html

---INTRO:-------------------------------------------------------------------

Em---Em-Em---Em---Em-Em-A-Em---Em-Em---Em---Em-Em-A



---VERS 1:------------------------------------------------------------------

Em
Hun sitter foran meg p frste rad, hun har
A
ble yne er bestandig glad.
H                      A               Em---Em-Em-A-Em---Em-Em-A
Jeg er forelska men jeg fr det ikke frem.
Em
Jeg sender lapper men jeg f'kke no svar.
A
Hun synes at jeg ikke er no til kar.
H                  A               Em---Em-Em-A-Em-Em-Em-Em-Em-Em-Em-Em-Em
Hun er forelska men det er ikke i meg.



---REFRENG:-----------------------------------------------------------------

C#M                       Hm    A
Hun er forelska i nissen, h-h-h.
A                  G#    F#
Forelska i nissen, h-h-h.
F#                                  E
Hun er forelska i nissen og ikke i meg.



---VERS 2:------------------------------------------------------------------

Em
Nissen han er 50 r, han har
A
lubben kropp og slvgrtt hr.
H             A           Em---Em-Em-A-Em---Em-Em-A
Han er hele skogens Don Juan.
Em
Og jeg er bare 15 r, hun sier
A
kom tilbake om 4 r.
H                  A               Em---Em-Em-A-Em-Em-Em-Em-Em-Em-Em-Em-Em
Hun er forelska men det er ikke i meg.



---REFRENG:-----------------------------------------------------------------

C#M                       Hm    A
Hun er forelska i nissen, h-h-h.
A                  G#    F#
Forelska i nissen, h-h-h.
F#                                  E
Hun er forelska i nissen og ikke i meg.



---GITARSOLO:---------------------------------------------------------------
[ Tab from: http://www.guitaretab.com/t/the-grnne-glitrende-3-og-dag/179854.html ]
1. Stemme:
|---------------------------------------------------------------------|
|---------------------------------------------------------------------|
|---------------4-6-8-6--------------------4-6-8-6--------------------|
|-----------4-6------------------------4-6----------------------------|
|-4-4-4-6-7------------------4-4-4-6-7--------------------------------|
|---------------------------------------------------------------------|

|-12p9-12p9-----------------------------------------------------------|
|------------12p9-12p9------------------------------------------------|
|-----------------------11p9-11p9-------------------------------------|
|----------------------------------11p9-11p9--------------------------|
|---------------------------------------------11p9-11p9---------------|
|--------------------------------------------------------11p9-11p9----|

2. Stemme:
|---------------------------------------------------------------------|
|---------------5-7-9-7--------------------5-7-9-5-7------------------|
|-----------4-6------------------------4-6----------------------------|
|-------4-6------------------------4-6--------------------------------|
|-7-7-7----------------------7-7-7------------------------------------|
|---------------------------------------------------------------------|

|---------------------------------------------------------------------|
|---------------------------------------------------------------------|
|-11p9-11p9-----------------------------------------------------------|
|------------11p9-11p9------------------------------------------------|
|-----------------------11p9-11p9--9p7-9p7----------------------------|
|-------------------------------------------9p7-9p7--7p9-7p9----------|




p = Pull off