Song name
# A B C D E F G H I J K L M N O P Q R S T U V W X Y Z

The Growlers - Sunset Girl tab

This is the whole song, just figure out the strumming pattern.


e|-7--5--7--3--5-----------------------|
B|-7--7--8--5--7-----------------------|
G|-7--7--9--5--7-----------------------|
D|-------------------------------------|
A|-------------------------------------|
E|-------------------------------------|


There is a change and it goes like this


e|-7--5--3--5-----------------------|
B|-7--7--5--7-----------------------|
G|-7--7--5--7-----------------------|
D|----------------------------------|
A|----------------------------------|
E|----------------------------------|

thassit!
Tap to rate this tab
# A B C D E F G H I J K L M N O P Q R S T U V W X Y Z