Song name
# A B C D E F G H I J K L M N O P Q R S T U V W X Y Z

The Growlers - Acid Rain tab

It's sad to see that not many people know how badass this 
band is and how sick they sound. There's not that much songs posted 
by this band so I'll be tabbing out more songs 
from these guys soon. Well, here it is, and please, feedback is helpful. 
Playing with the song is useful so I put this link up:
http://www.youtube.com/watch?v=ziADG3Swktg
If you dig this song check out their other stuff, its way sick.
                          
                 THE GROWLERS - ACID RAIN
                         
 *KEY
  h - hammer on
  p - pull off

*Intro*

e|------------------------------------------------------------|
b|-------8---8----8---8-----8--8------------------------------|
g|-----------7----7---7-----7--7------------------------------|
D|----9------------------9------------------------------------|
A|------------------------------------------------------------|
E|------------------------------------------------------------|

*Main Riff - (played throughout whole song)

"Last night I think that it rained, and nobody complained..."
e|------------------------------------------------------------|\
b|-----8--8----7--7-------------------------------------------| \
g|----------------------9--9---7--7---7h9p7--7----------------|  \ 8x
D|-----------------------------------------------9--9--7------|  /
A|------------------------------------------------------------| /
E|------------------------------------------------------------|/

*After the first verse is played 8x, then play:

e|-----7--7--7---10--7--------------------7-------------------|
b|--------------------------10--10--10--------10--------------|
g|------------------------------------------------------------|
D|------------------------------------------------------------|
A|------------------------------------------------------------|
E|------------------------------------------------------------|


e|----10---7--------------------------------------------------|
b|------------10--8-------8-8---------------------------------|
g|--------------------7-7-7-7---------------------------------|
D|------------------------------------------------------------|
A|------------------------------------------------------------|
E|------------------------------------------------------------|

**Then repeat the Main Riff 4x**

*And then:

e|-----7--7--7---10--7--------------------7-------------------|
b|--------------------------10--10--10--------10--------------|
g|------------------------------------------------------------|
D|------------------------------------------------------------|
A|------------------------------------------------------------|
E|------------------------------------------------------------|



e|-----------------------------|----------------7-7-----------|
b|-----7h8p---------8----------|-------8--------6-6-----------|
g|-----------7----9---9--7-----|-----7---7----6-6-6-----------|
D|-------------------------9-7-|---9--------------------------|
A|-----------------------------|------------------------------|
E|-----------------------------|------------------------------|



e|-----7-8-7-------------------|------------------------------|
b|-----------8------7--8-9-10--|------8---8----8---8-----8--8-|
g|---9------------6------------|----------7----7---7-----7--7-|
D|--------------7--------------|---9------------------9-------|
A|-----------------------------|------------------------------|
E|-----------------------------|------------------------------|

**Then repeat the Main Riff 8x**

e|-----7--7--7---10--7--------------------7-------------------|
b|--------------------------10--10--10--------10--------------|
g|------------------------------------------------------------|
D|------------------------------------------------------------|
A|------------------------------------------------------------|
E|------------------------------------------------------------|

e|------------------------------------------------------------|
b|-----7h8p---------8---------------------------8-------------|
g|-----------7----9---9--7-----------------7--9---------------|
D|-------------------------9-------------9--------------------|
A|--------------------------10--------------------------------|
E|------------------------------------------------------------|

e|------------------------------------------------------------|
b|----8--7-------------8--------------------------------------|
g|----------9--7--7h9-----9--7---------------7----------------|
D|------------------------------9--------------9--------------|
A|--------------------------------10------10-----10-----------|
E|------------------------------------------------------------|


e|------------------------------------------------------------|
b|----8--7-------------8--------------------------------------|
g|----------9--7--7h9-----9--7--------------------------------|
D|------------------------------9-----------------------------|
A|------------------------------------------------------------|
E|------------------------------------------------------------|

e|-----7--7--7---10--7--------------------7-------------------|
b|--------------------------10--10--10--------10--------------|
g|------------------------------------------------------------|
D|------------------------------------------------------------|
A|------------------------------------------------------------|
E|------------------------------------------------------------|


e|----10---7--------------------------------------------------|
b|------------10--8-----8-------------------------------------|
g|--------------------7---------------------------------------|
D|------------------------------------------------------------|
A|------------------------------------------------------------|
E|------------------------------------------------------------|


                          *THE END*
Tap to rate this tab
# A B C D E F G H I J K L M N O P Q R S T U V W X Y Z