Song name
# A B C D E F G H I J K L M N O P Q R S T U V W X Y Z

The Growlers - Freedom Children tab

                              FREEDOM CHILDREN
                
    Chances are you probably haven't heard of this one so here it is:
    http://www.youtube.com/watch?v=GER5e405zNc 

    Intro 1st guitar:
    (played whole song)      

    e|-------------------------------------------------|
    b|-------------------------------------------------|
    g|--------2--4b--4--2-----2---4b--2--4--2----------|
    D|-----4---------------4----------------------4----|
    A|-------------------------------------------------|
    E|-------------------------------------------------|


    e|-----2--0--------------------------------------------------------|
    b|------------2-0--------------------------------------------------|
    g|----------------2--------2--4b--4--2-----2---4b--2--4--2---------|
    D|-------------------4---4---------------4----------------------4--|
    A|-----------------------------------------------------------------|
    E|-----------------------------------------------------------------|


    2nd guitar comes in:

    e|-------5-----3--3-3-3/------5-----3--3-3-3/------5-----3--3-1---5--3-|
    b|-----5-5-----3--3-3-3/----5-5-----3--3-3-3/----5-5-----3--3-2---5--3-|
    g|---6---------3--3-3-3/--6---------3--3-3-3/--6---------3--3-3---6--3-|
    D|---------------------------------------------------------------------|
    A|---------------------------------------------------------------------|
    E|---------------------------------------------------------------------|

    b=bend
    /=slide up


Tap to rate this tab
 
# A B C D E F G H I J K L M N O P Q R S T U V W X Y Z