Song name
# A B C D E F G H I J K L M N O P Q R S T U V W X Y Z

The Growlers - Sunset Girl tab

I just learned this song from the other tab props to that guy but I think the last parts 
sound different to me. This is the whole song, just figure out the strumming pattern.


e|-7--5--7-----------------------------|
B|-7--7--8--7--8-----------------------|
G|-7--7--9--8--9-----------------------|
D|-------------------------------------|
A|-------------------------------------|
E|-------------------------------------|


There is a change and it goes like this


e|-7--5--3--5-----------------------|
B|-7--7--3--5-----------------------|
G|-7--7--4--6-----------------------|
D|----------------------------------|
A|----------------------------------|
E|----------------------------------|

thanks
Tap to rate this tab
# A B C D E F G H I J K L M N O P Q R S T U V W X Y Z