Song name
# A B C D E F G H I J K L M N O P Q R S T U V W X Y Z

The Growlers - Montonia tab

------------------------------------------------------------------------------------
 ********************************    Montonia - The Growlers    **************************
------------------------------------------------------------------------------------
Tabbed by: JM



e|-----------6------6---6-------|
B|---6---8------8---------------|
G|------------------------------|
D|------------------------------|
A|------------------------------|
E|------------------------------|

e|--6-----8-----10----8----10---10-----6----8-----10----8----10----13----------|
B|-----------------------------------------------------------------------------|
G|-----------------------------------------------------------------------------|   x2
D|-----------------------------------------------------------------------------|
A|-----------------------------------------------------------------------------|
E|-----------------------------------------------------------------------------|


e|--------------------------------------------------------------------------|
B|---8s6--------8s6---------------------------------------------------------|
G|--------7-7----------7------7s10-----7--7-----5----7----5-----4-----------|
D|--------------------------------------------------------------------------|
A|--------------------------------------------------------------------------|
E|--------------------------------------------------------------------------|



************************************

| /   slide up
| \   slide down
| h   hammer-on
| p   pull-off
| ~   vibrato
| +   harmonic
| x   Mute note
| b   Bend
| pb  Pre-bend
| br  Bend release
| pbr Pre-bend release
| brb Bend release bend
Tap to rate this tab
# A B C D E F G H I J K L M N O P Q R S T U V W X Y Z