Song name
# A B C D E F G H I J K L M N O P Q R S T U V W X Y Z

The Growlers - Monotonia tab

-------------------------------------------------------------------------------
                             MONOTONIA - The Growlers
-------------------------------------------------------------------------------
Tabbed by: dmoney
E-mail: don't email me

Tuning: standard

e|-------------------------------------------------------------------10--13----|
B|-------11---11-11--------11--13--15--13--15------11--13--15--13--------------|
G|-10-12---12------------------------------------------------------------------|
D|-----------------------------------------------------------------------------|
A|-----------------------------------------------------------------------------|
E|-----------------------------------------------------------------------------|

e|---------11------11--13----------------11-----11--13-----------------------|
B|-10--12------12----------------10--12-----12------------8s6--6s3-3---------|
G|---------------------------------------------------------------------------|
D|---------------------------------------------------------------------------|
A|---------------------------------------------------------------------------|
E|---------------------------------------------------------------------------|

e|---------------------------------------------------------------------------|
B|---8s6-6s3-3s6-6s3-3--3-1-1-3-1--------------------------------------------|
G|--------------------------------0------------------------------------------|
D|---------------------------------------------------------------------------|
A|---------------------------------------------------------------------------|
E|---------------------------------------------------------------------------|
Tap to rate this tab
# A B C D E F G H I J K L M N O P Q R S T U V W X Y Z