Guitaretab - guitar tabs
Song name
# A B C D E F G H I J K L M N O P Q R S T U V W X Y Z

The Guggenheim Grotto - Told You So tab

This song is fun to play i hope you like this tab :)

Tuning: Drop D





Intro/Outro
|-----------------------------------------------| x6
|-----------------------------------------------|
|-----------------------------------------------|
|--3-3-1-3---3-1-3--3-1-1-6-1-------------------|
|--3-3-1-3---3-1-3--3-1-1-6-1-------------------|
|--3-3-1-3---3-1-3--3-1-1-6-1-------------------|

Verse
(its in a wah so its hard to hear)
|----------------------------|
|----------------------------|
|----------------------------|
|--3-3-3-3-3-3-3-3-3-3-3-3---|
|--3-3-3-3-3-3-3-3-3-3-3-3---|
|--3-3-3-3-3-3-3-3-3-3-3-3---|
PM . . . . . . . . . . . .

[ Tab from: http://www.guitaretab.com/t/the-guggenheim-grotto/147196.html ]
Chorus 
|---------------------------------------------------|
|---------------------------------------------------|
|--6-6-6-6---------6-6-6-6---------6-6-6-6----------|
|--6-6-6-6-6-6-6-6-6-6-6-6-6-6-6-6-6-6-6-6----------|
|--4-4-4-4-6-6-6-6-4-4-4-4-6-6-6-6-4-4-4-4-6-6-6-6--|
|----------6-6-6-6---------6-6-6-6---------6-6-6-6--|

|-----------------------------------------------|
|-----------------------------------------------|
|--5-5--5-5--5-5--5-5---------------------------|
|--5-5--5-5--5-5--5-5---------------------------|
|--3-3--3-3--3-3--3-3---------------------------|
|-----------------------------------------------|


Verse
Guitar 2
|-----------------------------------------------|
|-----------------------------------------------|
|-----------------------------------------------|
|--3-3-3-3-3-3-3-3-3-3-3-3-3-3------------------|
|--3-3-3-3-3-3-3-3-3-3-3-3-3-3------------------|
|--3-3-3-3-3-3-3-3-3-3-3-3-3-3------------------|
PM . . . . . . . . . . . . . .

Guitar 1
|---------------|x2
|---------------|
|---------------|
|--3-3-1-3------|
|--3-3-1-3------|
|--3-3-1-3------|

Order:
Intro/Outro
Verse
Chorus x2
Intro/Outro
Verse
Solo (play the intro/outro as backup during the solo)
Chorus x2
Intro/Outro
Related for Told You So tab
Advertisement will be closed in 10 seconds