Song name
# A B C D E F G H I J K L M N O P Q R S T U V W X Y Z

The Guggenheim Grotto - Trust Me Im A Thief chords

Highlighted       Show chord diagrams
Tabbed by: -Squar3-

My first tab, made by ear.

Tuning: Standard.
Capo on 3rd Fret.

Piano Intro with guitar.
 
E|----------------------------------------------------------------|
B|---0---0---0---0---0---0---0------------------------------------|
G|-----2---0-------0----------------------------------------------|
D|-2-----------4-------2---4---0---2------------------------------|x4

 Em
Take in the restless nature
The promise of a bold adventure

 D
Careful what you wish for
Careful what you wish
Oh, the devil's in the details

 Em
Baby shoot straight
Bay box clever
Speak in tongues of gold and silver

 D
Careful what you wish for
Careful what you wish
Oh, the devil's in the details

 Am
Trust me, trust me
        Em
I'm a thief**

**Em or 
E|----------------------------------------------------------------|
B|---0---0---0---0---0---0---0------------------------------------|
G|-----2---0-------0----------------------------------------------|
D|-2-----------4-------2---4---0---2------------------------------|x2

 Em
Please be quick and swear forever
We can draw the stars together

 D
Careful what you wish for
Careful what you wish
Oh, the devil's in the details

 Em
Cross your heart and hope to die
Stick a needle in your eye

 D
Careful what you wish for
Careful what you wish
Oh, the devil's in the details

 Am
Trust me, trust me
        Em
I'm a thief**

**Em or 
E|----------------------------------------------------------------|
B|---0---0---0---0---0---0---0------------------------------------|
G|-----2---0-------0----------------------------------------------|
D|-2-----------4-------2---4---0---2------------------------------|x2

   D       Am                    Em
Promises break, that's what they do
   D       Am                    Em
Scorpions sting, that's what they do
   D       Am                    Em
Hurricanes take, that's what they do
   D                 Am               Em
Just like I'm gonna steal a piece of you

 Em
Trust me I'm a thief
Trust me I'm a thief
Trust me I'm a thief
Tap to rate this tab
# A B C D E F G H I J K L M N O P Q R S T U V W X Y Z