Song name
# A B C D E F G H I J K L M N O P Q R S T U V W X Y Z

The Gun Club - Preaching The Blues tab

The Gun Club
"Preaching the Blues"
Album: Fire of Love

intro + verse

riff
-12------------------------|-------------------------------------------|
-12-15-14-12---------------|--0 / 12 (slide b/---alternating-----------|
-13-13-13-13--(several x)--|--1 / 13   these 2---with--------------0-0-|
-14-14-14-14---------------|--2 / 14  chords)------------------2-2-----|
---------------------------|--2 / 14--------------------------(2)------|
---------------------------|--0 / 12-----------------------------------|

----------------|
----------------|
---------0-0----|
-2---2-2-----2--|
----(2)---------|
----------------|
                                                riff
I was up this morning, blues walking like a man
...


chorus :
                  G (3554)  +  riff
So, preach the Blues
               G   A (5776) +  riff
So, Preach the Blues now
Tap to rate this tab
# A B C D E F G H I J K L M N O P Q R S T U V W X Y Z