Song name
# A B C D E F G H I J K L M N O P Q R S T U V W X Y Z

The Gutter Twins - Front Street tab

Help us improve GuitareTab! Take a short survey!
This is the acoustic guitar you hear from the start. This riff is played throughout the 
song...

e|------------------------------------------------------------|
B|--0----0----0----0----0----0----0----0----0----0----0----0--|
G|---2----2----2----2----2----2----2----2----2----2----2----2-|
D|2----2----2----2----0----0----0----0------------------------|
A|----------------------------------------3----3----3----3----|
E|------------------------------------------------------------|

e|--------------------|
B|--0----0----0----0--|
G|---2----2----2----2-|
D|---------------0----|
A|2----2----3---------|
E|--------------------|
Related for Front Street tab