Song name
# A B C D E F G H I J K L M N O P Q R S T U V W X Y Z

The Hackensaw Boys - Bordertown chords

Highlighted       Show chord diagrams
                                           Bordertown - The Hackensaw Boys

From the album "Love What You Do"

Chords with intro and outro tabbed for guitar.


[Intro]
e|----------------------------------0------------------------------|
B|----------------------------------1------------------------------|
G|---0--------------------0---------0-----0------------------------|
D|-------0---0----------------0---0-2---------0---0----------------|
A|---------2---2-0--------------2---3-----------2---2-0------------|
E|-----------------3----------------X-------------------3----------|

e|------------------------------------------------------------3----|
B|------------------------------------------------------------0----|
G|------------------------------------------------------------0----|
D|-------0-------0-------0--------------0-------0-------0-----0----|
A|---0-2---2-0-2---2-0-2---2-0------0-2---2-0-2---2-0-2---2-0-2----|
E|-----------------------------3------------------------------3----|

(Play that "G" right into the first verse...)

      G
I was up when I put her down

      C                      G
I was thinking 'bout a Bordertown

      G
And I sang it out in a song

     D                G
In a song, Lord, in a song.


It's a shame and it's a crime.
Can't see nothin' eye to eye.
Water's up but the levee's down
In a bordertown, in a bordertown.

A lonely man will settle for
Something less than he adores
And he'll sing it out in a song
In a song, Lord, in a song.

I was wrong and I was right.
And I was thinkin' that I just might
Pack it up to settle down
In a bordertown, in a bordertown.


[Chorus]
    C
The difference, I percieve

      G             Em
Ain't nothing but a dream

      G          D                G
In us all, in us all, Lord, in us all.


From Oregon to Shenandoah
I have ridden the highway roads
And I sang it out in a song
In a song, Lord, in a song.

Every city is the same
And every river has a name
Like the stars shining down
On a bordertown, on a bordertown.

[Chorus]
The difference, I percieve
Ain't nothing but a dream
In us all, in us all, Lord, in us all.
In us all, Lord, in us all.
In us all...

[Outro]
e|-----------------3----|
B|-----------------0----|
G|---0-------------0----|
D|-------0---0-----0----|
A|---------2---2-0-2----|
E|-----------------3----|



Tabbed by:  Grease Bandit

December 31, 2013
Tap to rate this tab
# A B C D E F G H I J K L M N O P Q R S T U V W X Y Z