Song name
# A B C D E F G H I J K L M N O P Q R S T U V W X Y Z

The Hall Effect - Aim At Me tab

---------------------------------------------------------------------------
                             AIM AT ME
                           The Hall Effect
---------------------------------------------------------------------------
Intro:

e-------2------0-|
B---------3----2-|
G---2-------2----|
D-0--------------|
A----------------|
E----------------|x2

e-------2------0-|
B---------3----3-|
G---4-------4----|
D-2--------------|
A----------------|
E----------------|x2

e-------3------0-|
B---------3----3-|
G-----------0----|
D----------------|
A--2-------------|
E-3--------------|x1

e-------0------0-|
B---------2----2-|
G---2-------2----|
D-0--------------|
A----------------|
E----------------|x1

e-------2------0-|
B---------3----2-|
G---2------2-----|
D-0--------------|
A----------------|
E----------------|x2

Versos:

           D                     Bm              G            A
e---------------0--------------------------------------------------|
B------3---3------3-----------3-------3-------------3-----------2--|
G---2--2-----2------2---------4---4-----4-----------0-----------2--|
D-0------------------------4--------4-----4------------------2-----|
A------------------------2-----------------------2---------0-------|
E----------------------------------------------3-------------------|

         D
e-------2------0-|
B---------3----2-|
G---2------2-----|
D-0--------------|
A----------------|
E----------------|X2

Puente 1: Em,G,D.....Em,G,A

e--------2-3-2-------------------|
B-----0--3-3-3------0--2-3-2-----|
G-0---4--2-2-2---0--4--2-2-2-----|
D-2---5--0-0-0---2--5--2-2-2-----|
A-2---5----------2--5------------|
E-0---3----------0--3------------|

Coros: D,Bm,G,A,D,D*,D,D*

e-0-
B-3-
G-2-  = D*
D-0-
A---
E---

Versos,Puente 1,Coro
Puente 2:

e-----2------0-------------------I------I---------|
B---3---3-------------3-------3--I------I--2-3-2--|
G-4-------4---------4-------4----I--X6--I--2-2-2--|
D-----------------4-------5------I------I--2-2-2--|
A--------------------------------I------I---------|
E--------------------------------I------I---------|

Coro......


Modificaciones, enviarlas a Quetzalcoalt_ehecalt@hotmail.com, gracias.
Tap to rate this tab
 
# A B C D E F G H I J K L M N O P Q R S T U V W X Y Z