The Hard Lessons - The Arms Forest tab

Artist: The Hard Lessons ( http://www.thehardlessons.com/home.html )
Song: The Arms Forest
Tabbed by: Arsid


Alright, so this is a pretty easy song, and I'm pretty sure I've got this 99.99% correct.


play at: 0:00, 0:56, 1:47
e |------------------------------------------|
B |------------------------------------------|
G |------------------------------------------|
D |------------------------------------------|
A |----10-10-10-10-10-10-13-13-13-12-12-12---|
E |------------------------------------------|


play at: 0:13, 1:13
e |-------------------------------------------|
B |-------------------------------------------|
G |-------------------------------------------|
D |--5-5-3-5-5-8-8-7-7------------------------|
A |--5-5-3-5-5-8-8-7-7------------------------|
E |--3-3-1-3-3-6-6-5-5------------------------|


play at: 0:21, 1:29
e |------------------------------------------|
B |------------------------------------------|
G |------------------------------------------|
D |------------------------------------------|
A |------1--3--5--3--1-----------------------|
E |---3--------------------------------------|

play at: 0:39
e |------------------------------------------|
B |------------------------------------------|
G |-------7-7--3-3---------------------------|
D |--5-5--7-7--3-3---3-3---------------------|
A |--5-5--5-5--1-1---3-3---------------------|
E |--3-3-------------1-1---------------------|


Alright, so I tabbed the first part of the solo, but at the very end of the solo 
he goes into the lower
strings and it kinda just blends into the rest of the music. this is what i got out of it.

solo:
e |-------------------------------------------------------------------------|
B |----15-15-15-------------------------------------------------------------|
G |-15----------15--15--15--17-15--15h17p15----15---------------------------|
D |-----------------------------------------17----17-17p15------------------|
A |--------------------------------------------------------17-15h17p15------|
E |-------------------------------------------------------------------18p15-|
                            right around here ^ is where i lose what he's really
                            playing so just throw in some random hammer ons
                             and pull offs like i did and it sounds pretty accurate.

outro: starts at 2:04 and continues through the rest of the song
e |----------------------------------------------------------------------|
B |----------------------------------------------------------------------|
G |--------7--7--3--3---------------------7--7--3--3--7-5-3--------------|
D |--5--5--7--7--3--3--3-3-3--------5--5--7--7--3--3--7-5-3--------------|
A |--5--5--5--5--1--1--3-3-3--------5--5--5--5--1--1--5-3-1--------------|
E |--3--3--------------1-1-1--------3--3---------------------------------|
Tap to rate this tab
 
# A B C D E F G H I J K L M N O P Q R S T U V W X Y Z