Song name
# A B C D E F G H I J K L M N O P Q R S T U V W X Y Z

The Head And The Heart - Down In The Valley tab

-------------------------------------------------------------------------------
			     Down In The Valley - The Head and The Heart
-------------------------------------------------------------------------------
Tabbed by: Stefano Prezioso
Email: stefprez@gmail.com

This is my first tab. Watching the live version of the song on Youtube helped me figure
some of it out. In the beginning, the thumb plays triplets as a rhythm bass while the
other fingers strum eighth notes and triplets. Kind of tricky, but it's not too bad with 
some practice.

The hand holds a C position while moving the fingers to play the melody. The pinky plays
the 3rd fret on the high E and B strings. The middle finger shifts down from the D
string to the G string to play the second fret, then returns to the D string for the 
ending of the intro.

Tuning: Standard

I'm self titling the chords since I have no idea if they are actually named or not. This
is to help give an idea of which fingers go where.


C-1
e|-|-|4|-|
B|1|-|-|-|
G|-|2|-|-|
D|-|-|-|-|
A|-|-|3|-|
E|-|-|-|-|

C-2
e|-|-|-|-|
B|1|-|-|-|
G|-|2|-|-|
D|-|-|-|-|
A|-|-|3|-|
E|-|-|-|-|

C-3
e|-|-|-|-|
B|1|-|4|-|
G|-|2|-|-|
D|-|-|-|-|
A|-|-|3|-|
E|-|-|-|-|

C-4
e|-|-|-|-|
B|1|-|-|-|
G|-|-|-|-|
D|-|-|-|-|
A|-|-|3|-|
E|-|-|-|-|

C
e|-|-|-|-|
B|1|-|-|-|
G|-|-|-|-|
D|-|2|-|-|
A|-|-|3|-|
E|-|-|-|-|

   C-1         C-2         C-3                 C-2             C-4-------------|
e|-3-----------0-----------------------0---------------------------------------|
B|-------1-----------1-----3-----3---------3---1---------1-----------1---------|
G|-------------------------------------------------2-----------0---------------|
D|-----------------------------------------------------------------------------|
A|-3---3---3---3---3---3---3---3---3---3---3---3---3---3---3---3---3---3-------|
E|-----------------------------------------------------------------------------|

   C-2         C-4         C-1         C-2         C-3                 C-2-----|
e|-------------------------3-----------0-----------------------0---------------|
B|-------1-----------1-----------1-----------1-----3-----3---------3---1-------|
G|-2-----------0---------------------------------------------------------------|
D|-----------------------------------------------------------------------------|
A|-3---3---3---3---3---3---3---3---3---3---3---3---3---3---3---3---3---3-------|
E|-----------------------------------------------------------------------------|
                          C
e|---------------------------------------------------------------------------|
B|-------1-----------1-------------------------------------------------------|
G|-2-----------2----------0----0---0------0---0------0---0------0---0--------|
D|-------------------------------2---2------2----------2---2------2----------|
A|-3---3---3---3---3---3--3---------------------3----------------------------|
E|---------------------------------------------------------------------------|

As I figure out more of the song, I may post a full tab, but as of now, I don't know the
full thing. Just thought I'd put up a correct version of the intro!


************************************

| /   slide up
| \   slide down
| h   hammer-on
| p   pull-off
| ~   vibrato
| +   harmonic
| x   Mute note
| b   Bend
| pb  Pre-bend
| br  Bend release
| pbr Pre-bend release
| brb Bend release bend

************************************
Tap to rate this tab
# A B C D E F G H I J K L M N O P Q R S T U V W X Y Z