Song name
# A B C D E F G H I J K L M N O P Q R S T U V W X Y Z

The Head And The Heart - Winter Song tab

Okay, this is pretty much the same finger-picked progression through
the whole song. I am going to list it once, then the lyrics.  Then show the
ending tab.  Simple stuff, basically just chords with bass notes changing.

CAPO 3 Standard Tuning

  D             D/C#          D/B           D/A
e-2-------2-----2-------2-----2-------2-----2-------2-----------------------|
B-----3-------3-----3-------3-----3-------3-----3-------3-------------------|
G---2-------2-----2-------2-----0-------0-----2-------2---------------------|
D-0-----0-------------------------------------------------------------------|
A---------------4-----4-------2-----2-------0-----0-------------------------|
E---------------------------------------------------------------------------|

  G             G/F#          Em7
e-3-------3-----3-------3-----3-------0-------------------------------------|
B-----3-------3-----3-------3-----3-------3-2---0h2-0-----------------------|
G---0-------0-----0-------0-----0-------0-----2-----------------------------|
D---------------------------------------------------------------------------|
A-------------------------------------------0---0---------------------------|
E-3-----3-------2-----2-------0-----0---------------------------------------|

  D             D/C#          D/B           D/A
e-5-------5-----5-------5-----5-------5-----5-------5-----------------------|
B-----3-------3-----3-------3-----3-------3-----3-------3-------------------|
G---2-------2-----2-------2-----0-------0-----2-------2---------------------|
D-0-----0-------------------------------------------------------------------|
A---------------4-----4-------2-----2-------0-----0-------------------------|
E---------------------------------------------------------------------------|

  G             G/F#          Em7           A
e-7-------7-----7-------7-----7-------0-------------------------------------|
B-----0-------0-----0-------0-----0-------0-2---0h2-0-----------------------|
G---0-------0-----0-------0-----0-------0-----2-----------------------------|
D---------------------------------------------------------------------------|
A-------------------------------------------0---0---------------------------|
E-3-----3-------2-----2-------0-----0---------------------------------------|

Tell me something, give me hope for the night,
We don't know how we feel,
We're just praying that we're doing this right,
Though that's not the way it seems,

Summer gone, now winter's on its way
I will miss the days we had
The days we had
I will miss the days we had
The days we had
Oh, I'll miss the days we had

Loving, leaving, it's too late for this now
Such esteem for each has gone
Has time driven our season away?
Cause that's the way it seems
In the world of the speech that is new
I'll be back again to stay
Again to stay
I'll be back again to stay
Again to stay
I'll be back again to stay

Ending Tab

e-0h2-------2-----2h3-------0-----0h2-------2-----0h2-------2---------------|
B-------3-------3-------3-------3-------3-------3-------3-------3-----------|
G-----2-------2-------2-------2-------2-------2-------2-------2-------------|
D-0-------0-------0-------0-------0-------0-------0-------0-----------------|
A---------------------------------------------------------------------------|
E---------------------------------------------------------------------------|

e-5-------5-------5-------5-----7-------7-----5---3-------------------------|
B-----3-------3-------3-------3-----0-------0-------------------------------|
G---2-------2-------2-------2-----0-------0-----0---0-----------------------|
D-0-----0-------0-------0---------------------------------------------------|
A---------------------------------------------------------------------------|
E-------------------------------3-----3-------3---3-------------------------|

Repeat the above tab 2x and end on a D major chord (strum)

The lyrics just came off of a website and I am too lazy to actually listen
and see if they are right.  Anyways,  This should pretty much do it.
Easy song and very pretty.

JIFIGZ
Tap to rate this tab
# A B C D E F G H I J K L M N O P Q R S T U V W X Y Z