Song name
# A B C D E F G H I J K L M N O P Q R S T U V W X Y Z

The Head And The Heart - Down In The Valley tab

e|-3-------0----------------0-----------------------------------------------|
B|-----1-------1---3----3-----3-1------1-------1-------1-------1------------|
G|---------------------------------2-------0-------2-------0----------------|
D|--------------------------------------------------------------------------|
A|-3--3-3--3--3-3--3--3--3--3-3-3--3--3-3--3--3-3--3--3-3--3--3-3-----------|
E|--------------------------------------------------------------------------|

e|-3-------0----------------0-----------------------------------------------|
B|-----1-------1---3----3-----3-1------1-------1----------------------------|
G|---------------------------------2-------2-------0-00----00---00----------|
D|-------------------------------------------------------2---------2--------|
A|-3--3-3--3--3-3--3--3--3--3-3-3--3--3-3--3--3-3-------------3-------------|
E|--------------------------------------------------------------------------|x2 all together
Tap to rate this tab
 
# A B C D E F G H I J K L M N O P Q R S T U V W X Y Z