The Head And The Heart - Josh Mcbride tab

-------------------------------------------------------------------------------
                        The Head And The Heart - Josh McBride
-------------------------------------------------------------------------------
Tabbed by: Tom Harvey
E-mail: tom.harvey96@hotmail.com

Tuning: Standard - CAPO ON 4 - all notes relative to capo

CHORDS (In case you want to strum):

C/G  Em     G*    Am   F     F^ -> (I saw this in the music video but I'm not sure what 
the chord is called - I shall note it F^)
E-3----0----3----x----x----0-|
A-3----2----2----0----3----0-|
D-2----2----0----2----3----5-|
G-0----0----0----2----2----4-|
B-1----0----0----1----1----3-|
e-0----0----0----0----1----0-|


C
Came to the cold just to see you
Em
Standing there in expectation
G*                        Am
Woolen coat and blue eyes staring
F          F^           C
Oh this vision does me good


This seems to follow this picking pattern:
      C          Em         G*        Am        F        F^          C
e|----0-----------0---------0--------0-----------0--------0--------0-------------|
B|-----1-----------0---------0--------1-----------1--------3--------1------------|
G|-------x4----------x2-------------2----x2-----2--------4-----------------------|
D|---2----------2------------------2-----------3--------5---------2--------------|
A|--3----------2-----------2-------------------------------------3---------------|
E|------------------------3------------------------------------------------------|

C
In the city we don't know yet
Em
Cross the bridges not yet burned
G*                        Am
Where the ice won't let us further
F            F^                C
Wind our way down through the woods

C
Take me to the attic ladder
Em
In the barn with broken floors
G*                        Am
With your boots of Spanish leather
F            F^          C
And my hat knit out of yarn
F            F^          C
And My hat knit out of yarn

F            F^            Am
You are in the seat beside me
F            F^            Am
You are in my dreams at night
F            F^            Am
You are in grandmother's wisdom
F            F^            Am
You are in grandfather's charm


C
Show me young trees in the orchard
Em
With the music on their branches
G*                        Am
Keep them from the mouths of creatures
F            F^          C
Who intend for them no good

C
Take me out past the windbreak
Em
Speak the thing you could not utter
G*                        Am
Wind will howl and moon will cower
F            F^          C
At the magic of the word

C
Ohh ohh oho
Em
Ohohohhhoh
G*               Am
Ohhohhooh
 F          F^    C
Ohhh ooohhh hooo
  F       F^         C
Ohhhhhh oooohhh

C
Darling this is when I met you
Em
For the third time, not the last
G*                        Am
Not the last time we are learning
F            F^          C
Who we are and what we would

F            F^            Am
You are in the seat beside me
F            F^            Am
And you are in my dreams at night
F            F^            Am
You are in grandmother's wisdom
F            F^            Am
And you are in grandfather's charm
Tap to rate this tab
 
# A B C D E F G H I J K L M N O P Q R S T U V W X Y Z