Song name
# A B C D E F G H I J K L M N O P Q R S T U V W X Y Z

The Heavy - Short Change Hero tab

Chords used: 

      Dbm    E    F#    F#m    B7
e|-----0--|--0--|--2--|--2--|--2-----|
B|-----2--|--0--|--2--|--2--|--4-----|
G|-----1--|--1--|--3--|--2--|--2-----|
D|-----2--|--2--|--4--|--4--|--4-----|
A|-----x--|--2--|--4--|--4--|--2-----|
E|----(0)-|--0--|--2--|--2--|--------|

Intro:


e:--------|-------------|----------|------------|
B:--------|-------------|----------|------------|
G:--------|----------8--|-9-----13-|-11--8-9-11-|
D:----(9)-|-11----------|----------|------------|
A:--------|-------------|----------|------------|
E:--------|-------------|----------|------------|

e:--------|-------------|----------|------------|
B:--------|-------------|----------|------------|
G:--------|----------8--|-9-----13-|-11---------|
D:------9-|-11----------|----------|------------|
A:--------|-------------|----------|------------|
E:--------|-------------|----------|------------|

e:--------|-------------|----------|----------|-----|
B:--------|-------------|----------|-12-------|-----|
G:--------|----------8--|-9-----13-|-----11-9-|--8--|
D:------9-|-11----------|----------|----------|-----|
A:--------|-------------|----------|----------|-----|
E:--------|-------------|----------|----------|-----|

e:--------|-------------|----------|----------|
B:--------|-------------|----------|----------|
G:--------|-----------8-|-9-------8|----------|
D:------9-|---11--------|----------|--11------|
A:--------|-------------|----------|----------|
E:--------|-------------|----------|----------|

Verse: 

Dbm
I can't see where you're comin' from 
But I know just what you're runnin' from 
E                        F#
And what matters thinkin' who's baddest but the 
Dbm
Ones who stop you falling from your ladder 

Dbm
When you feel like you're feeling now 
And doin' things just to please your crowd 
E                        F#
When I love you like the way I love you 
Dbm
And I suffer but I ain't gonna cut you 'cause 


Chorus:

Dbm
This ain't no place for no hero 
This ain't no place for no better man 
E                          F#
This ain't no place for no hero 
      Dbm
To go home 

Bridge:

F#m                       Dbm
And every time I close my eyes 
  F#m                       Dbm
I think, I think about you inside 
  F#m                              Dbm
And your mother givin' up on asking why 
 F#m
Why you lie and you cheat 
        Dbm                       B7
and you try to make a fool out of she 

Outro:


e:--------|-------------|----------|------------|
B:--------|-------------|----------|------------|
G:--------|----------8--|-9-----13-|-11--8-9-11-|
D:----9---|-11----------|----------|------------|
A:--------|-------------|----------|------------|
E:--------|-------------|----------|------------|

e:--------|-------------|----------|----------|
B:--------|-------------|----------|----------|
G:--------|-----------8-|-9-------8|----------|
D:------9-|---11--------|----------|--11------|
A:--------|-------------|----------|----------|
E:--------|-------------|----------|----------|

Tap to rate this tab
 
# A B C D E F G H I J K L M N O P Q R S T U V W X Y Z