Song name
# A B C D E F G H I J K L M N O P Q R S T U V W X Y Z

The Heavy - Short Change Hero tab

SONG: Short Change Hero
BAND: The Heavy
ALBUM: The House That Dirt Built (2009)

--Intro--
e|-------------------------------------|
B|-------------------------------------|
G|-----------------13-11---------11----|
D|-----11---13-14----------13-14-------|
A|--11---------------------------------|
E|-------------------------------------|

e|--------------------------|
B|--------------------------|
G|-----------------13-11----|
D|-----11---13-14-----------|
A|--11----------------------|
E|--------------------------|

e|---------------------------------------|
B|--------------------12-----------------|
G|-----------------13------11------------|
D|-----11---13-14--------------14--13----|
A|--11-----------------------------------|
E|---------------------------------------|

e|---------------------------|
B|---------------------------|
G|---------------------------|
D|-----11---13-14--13--11----|
A|--11-----------------------|
E|---------------------------|



--Pre-Verse--
|  .  .  .  .  |  .  .  .  .  |  .  .  .  .  |  .  .  .  .  |
   C#m

|  .  .  .  .  |  .  .  .  .  |  .  .  .  .  |  .  .  .  .  |
   B              F#             C#m


--Verse--
C#m
I can't see where you're comin' from
C#m
But I know just what you're runnin' from
B                        F#
And what matters thinkin' who's baddest but the
C#m
Ones who stop you falling from your ladder
C#m
When you feel like you're feeling now
C#m
And doin' things just to please your crowd
B                      F#
When I love you like the way I love you
C#m
And I suffer but I ain't gonna cut you 'cause


--Chorus--
C#m
This ain't no place for no hero
C#m
This ain't no place for no better man
B                        F#
This ain't no place for no hero
C#m
To call home
C#m
This ain't no place for no hero
C#m
This ain't no place for no better man
B                        F#
This ain't no place for no hero
C#m
To call home


--Bridge--
F#m                      C#m 
And everytime I close my eyes
  F#m                      C#m
I think, I think about you inside
F#m                                 C#m
And your mother givin' up on asking why
        F#m                       C#m                       G#
Why you lie and you cheat and you try to make a fool out of she



--Verse--
C#m
I can't see where you're comin' from
C#m
But I know just what you're runnin' from
B                        F#
And what matters thinkin' who's baddest but the
C#m
Ones who stop you falling from your ladder, cause




--Chorus--
C#m
This ain't no place for no hero
C#m
This ain't no place for no better man
B                        F#
This ain't no place for no hero
C#m
To call home
C#m
This ain't no place for no hero
C#m
This ain't no place for no better man
B                        F#
This ain't no place for no hero
C#m
To call home



--Outro--
|  .  .  .  .  |  .  .  .  .  |  .  .  .  .  |  .  .  .  .  |
   C#m

|  .  .  .  .  |  .  .  .  .  |  .  .  .  .  |  .  .  .  .  |
   B              F#             C#m
Tap to rate this tab
# A B C D E F G H I J K L M N O P Q R S T U V W X Y Z