Song name
# A B C D E F G H I J K L M N O P Q R S T U V W X Y Z

The Heavy - Same Ol chords

Highlighted       Show chord diagrams
Same Ol’ - The Heavy

(Drums intro 2 bars)

e|-------------------|-------------------|------------------|
B|--------4----------|--------4-------4--|-------4----------|
G|-5--5-----5-3-5-3--|----------5-3-5----|-3--3---5-3-5-3---|
D|-----------------5-|--5--5-------------|---------------5--|
A|-------------------|-------------------|------------------|
E|-------------------|-------------------|------------------|

      1st time                     2nd time
e|-------------------|     e|------------------|
B|--------4-------4--|     B|-/7--6---6--------|
G|----------5-3-5----|:    G|-------8--8--5-\3-|
D|-3--3--------------|     D|------------------|
A|-------------------|     A|------------------|
E|-------------------|     E|------------------|

[Verse 1]

Cm                         G
I believe, If a man could fly,
A#                              F
I'd be just like a bird Trying to escape from your lies
Cm                     G
And the truth would never die
A#                                          F
It would be just like I remembered When you Swallowed my pride

(play 2nd time block above as intro to chorus)


[Chorus] (full intro riff with chords)
                            Cm              
When you were talking that Same ol'
                         G
And kept making that Same ol
                        A#
And kept working that Same ol'
F
Ol' Fool out of me
          Cm
All that Same ol'
                    G
Everyday it's that Same ol'
                     A#
You keep making the same ol'
F#
Ol' Fool out of me

[Verse 2]
 Cm                     G
But you see that I can sleep, 
         A#                               F
I don't know just how you do it Must be counting more than sheep 
          Cm              G
And it's time ror you and me to leave this 
 A#                               F
fairy tale we found 'Cause we, both need to breathe

[Bridge]

Cm                   D#                          A# 
And I know it's not enough but your love is like a drug
                F                                               Cm
I know it's not enough but your love is like a drug
                  D#                        A#
Know it's not enough, your love is like a drug
                      F                (2nd time riff here)
Your love is like, Like a But you just keep talking that


[Chorus 2] – with intro riff

Cm
Same ol' And kept working that
G
Same ol And kept making that
A#
Same ol' Ol'
F
Fool out of me
            Cm
All that same ol'
                   G
Everyday it's that Same ol'
                      A#
You keep making the same ol'
F
Ol' Fool out of me

[Bridge 2]

Cm      Cm      Cm   A# - F             x2

[repeat chorus]

[repeat first block of intro tab to finish]

________________________________________________
requested by Tom and Geordie at Laugh and Learn
Tap to rate this tab
# A B C D E F G H I J K L M N O P Q R S T U V W X Y Z