Song name
# A B C D E F G H I J K L M N O P Q R S T U V W X Y Z

The Heligoats - Water Towers On Fire tab

"Water Towers on Fire" by The Heligoats

Chords:
(Standard Tuning)

    e   d    <--Not sure of the exact chord names
e|---------|
b|--7---5--| <--But the finger placement is most likely correct
g|------4--|
d|--6------|
a|--5---3--|
E|---------|

For the entirety of the song, from beginning to end, the main acoustic guitar plays 
these two chords, one after another.
The rhythm is easily picked up.


During certain parts of the song, a second guitar plays this little ditty:

e|-----------------------------------------|
b|-------------------------------2------2--|
g|-12--12/11--11/9--9/7--7/4--2/4-4--2/4-4-|
d|-----------------------------------------|
a|-----------------------------------------|
E|-----------------------------------------|
(the "/" can mean to slide, hammer-on, or pull off. Your call, really.)

This is played at least twice each time.


Tabbed by TheSecretCodd
Tap to rate this tab
# A B C D E F G H I J K L M N O P Q R S T U V W X Y Z