Guitaretab - guitar tabs
Song name
# A B C D E F G H I J K L M N O P Q R S T U V W X Y Z

The Helio Sequence - Keep Your Eyes Ahead tab

I couldn't find any tabs for this song so i decided to try and figure it out myself, i 
it works pretty well, just listen to the song for rhythm

Intro/Verse

Guitar I

e-----------------------------------------------------------------------|
b---------6----------------------------------------0--------------------|
g-----------6-9-6------7----11----9------------6-----6-----6---9-9-6----|
d-----6--------------7---7-----11---11-----7-----7-----7-7---7-------7--|
a---7---7----------5---------------------7---7--------------------------|
e-9------------------------------------5--------------------------------|

Guitar II

e-----------------------------------------------------------------------|
b-----------------------------------------------------------------------|
g--6-6-6\4-4-4\2-2-2/4-4-4/6-6--6-6-6----16-16-16--14-14-14-------------|
d-----------------------------------------------------------------------|
a-----------------------------------------------------------------------|
e-----------------------------------------------------------------------|


Pre-Chorus

"Don't go back to there...."

Guitar I (same as intro/verse)

Guitar II
[ Tab from: http://www.guitaretab.com/t/the-helio-sequence/111474.html ]
e-------------------------------------------|
b-------------------------------------------|
g--16-16-16-16-16-14--16-16-16-16-16-14--18-|
d-------------------------------------------|
a-------------------------------------------|
e-------------------------------------------|

Chorus

"But you came on..."

Guitar I (same)

Guitar II

e------------------------------------------------------------|
b------------------------------------------------------------|
g-6--6--6--6--4--4--4--4--2--2--2--2--16--16--16--14--14--14-|
d------------------------------------------------------------|
a------------------------------------------------------------|
e------------------------------------------------------------|

Repeat Verse

Repeat Chorus


Bridge

e-----------------------------------------------------------------------|
b-----------------------------------------------------------------------|
g-----------------------------------------------------------------------|
d-11-11-11-11-11-11-9--9--9--9--9--9-7--7--7--7--7--7--7--7--7--7--7--7-|
a-----------------------------------------------------------------------|
e-9--9--9--9--9--9--7--7--7--7--7--7-5--5--5--5--5--5--5--5--5--5--5--5-|


Repeat Verse and fade out
Related for Keep Your Eyes Ahead tab
×
Keep Your Eyes Ahead