Song name
# A B C D E F G H I J K L M N O P Q R S T U V W X Y Z

The Helio Sequence - Cant Say No tab

Intro/Verse:

e -------------------------------------------------|
b -------------------------------------------------|
G -------0--------0-----0--------0--------0-----0--|
D ----0--------0--------------0--------0-----------|
A -3--------5--------7-----3--------5--------7-----|
E -------------------------------------------------|

e -------------------------------------------------|
b -------------------------------------------------|
G -------0--------0-----0--------0--------0-----0--|
D ----0--------0--------------0--------0-----------|
A -10-------9--------7-----10-------9--------7-----|
E -------------------------------------------------|

Chorus (2nd Guitar):

e -------------------------------------------------|
b -------------------------------------------------|
G -5--5--5--5--5--5--5--5--5--5--5--5--5--5--5--5--|
D -------------------------------------------------|
A -------------------------------------------------|
E -------------------------------------------------|

e -------------------------------------------------|
b -------------------------------------------------|
G -7--7--7--7--7--7--7--7--4--4--4--4--2--2--2--2--|
D -------------------------------------------------|
A -------------------------------------------------|
E -------------------------------------------------|

Solo :

e -------------------------------------------------|
b -10-10-10-10-8--8--8--8--10-10-10-10-12-12-12-12-|
G -9--9--9--9--9--9--9--9--9--9--9--9--9--9--9--9--|
D -------------------------------------------------|
A -------------------------------------------------|
E -------------------------------------------------|

e -------------------------------------------------|
b -7--7--7--7--7--7--7--7--8--8--8--8--7--7--7--7--|
G -7--7--7--7--7--7--7--7--7--7--7--7--7--7--7--7--|
D -------------------------------------------------|
A -------------------------------------------------|
E -------------------------------------------------|
Tap to rate this tab
 
# A B C D E F G H I J K L M N O P Q R S T U V W X Y Z